0
SECTION
2
HEADER
9
$INSUNITS
70
4
9
$ACADVER
1
AC1014
9
$HANDSEED
5
FFFF
0
ENDSEC
0
SECTION
2
TABLES
0
TABLE
2
VPORT
5
8
100
AcDbSymbolTable
0
ENDTAB
0
TABLE
2
LTYPE
5
5
100
AcDbSymbolTable
0
LTYPE
5
14
100
AcDbSymbolTableRecord
100
AcDbLinetypeTableRecord
2
BYBLOCK
70
0
0
LTYPE
5
15
100
AcDbSymbolTableRecord
100
AcDbLinetypeTableRecord
2
BYLAYER
70
0
0
ENDTAB
0
TABLE
2
LAYER
5
2
100
AcDbSymbolTable
70
2
0
LAYER
5
50
100
AcDbSymbolTableRecord
100
AcDbLayerTableRecord
2
0
70
0
6
CONTINUOUS
0
ENDTAB
0
TABLE
2
STYLE
5
3
100
AcDbSymbolTable
70
1
0
STYLE
5
11
100
AcDbSymbolTableRecord
100
AcDbTextStyleTableRecord
2
STANDARD
70
0
0
ENDTAB
0
TABLE
2
VIEW
5
6
100
AcDbSymbolTable
70
0
0
ENDTAB
0
TABLE
2
UCS
5
7
100
AcDbSymbolTable
70
0
0
ENDTAB
0
TABLE
2
APPID
5
9
100
AcDbSymbolTable
70
2
0
APPID
5
12
100
AcDbSymbolTableRecord
100
AcDbRegAppTableRecord
2
ACAD
70
0
0
ENDTAB
0
TABLE
2
DIMSTYLE
5
A
100
AcDbSymbolTable
70
1
0
ENDTAB
0
TABLE
2
BLOCK_RECORD
5
1
100
AcDbSymbolTable
70
1
0
BLOCK_RECORD
5
1F
100
AcDbSymbolTableRecord
100
AcDbBlockTableRecord
2
*MODEL_SPACE
0
BLOCK_RECORD
5
1B
100
AcDbSymbolTableRecord
100
AcDbBlockTableRecord
2
*PAPER_SPACE
0
ENDTAB
0
ENDSEC
0
SECTION
2
BLOCKS
0
BLOCK
5
20
100
AcDbEntity
100
AcDbBlockBegin
2
*MODEL_SPACE
0
ENDBLK
5
21
100
AcDbEntity
100
AcDbBlockEnd
0
BLOCK
5
1C
100
AcDbEntity
100
AcDbBlockBegin
2
*PAPER_SPACE
0
ENDBLK
5
1D
100
AcDbEntity
100
AcDbBlockEnd
0
ENDSEC
0
SECTION
2
ENTITIES
0
LWPOLYLINE
5
100
100
AcDbEntity
8
0
100
AcDbPolyline
90
4
70
1
43
0.0
10
-333.65692865196962
20
90.61982881361871
10
-335.58773912016085
20
90.619828813618724
10
-337.74147321554773
20
92.799989094225054
10
-335.81066274735645
20
92.799989094225054
0
LWPOLYLINE
5
101
100
AcDbEntity
8
0
100
AcDbPolyline
90
8
70
1
43
0.0
10
-341.0313193932501
20
98.080259235457575
10
-337.44002545253045
20
98.080259235457575
10
-335.28629135714391
20
95.900098954851231
10
-341.0313193932501
20
95.900098954851273
42
0.99999999999999989
10
-341.0313193932501
20
92.799989094225054
10
-339.07005279631284
20
92.799989094225054
10
-336.91631870092601
20
90.619828813618781
10
-341.0313193932501
20
90.619828813618767
42
-0.99999999999999989
0
LWPOLYLINE
5
102
100
AcDbEntity
8
0
100
AcDbPolyline
90
4
70
1
43
0.0
10
-338.37760050211705
20
99.02933827338282
10
-341.80910908800973
20
99.02933827338282
10
-345.53652335193146
20
102.80248768164708
10
-342.10501476603883
20
102.80248768164708
0
LWPOLYLINE
5
103
100
AcDbEntity
8
0
100
AcDbPolyline
90
82
70
1
43
0.0
10
-451.57499999999999
20
55.318740135144999
10
-451.57499999999993
20
51.029131579787226
42
-0.35405303621329259
10
-453.15872093023268
20
49.072933293295279
42
1.6087761257814679
10
-431.49159849025557
20
21.621802325581498
42
-0.28936596557631217
10
-429.68560859182054
20
22.762500000000003
10
-425.39600003646262
20
22.762499999999978
42
-0.27824916326210147
10
-423.6268913799347
20
21.695374354561125
42
0.27824916326210708
10
-420.25673938924888
20
19.662499999999994
10
-415.74326061075089
20
19.662500000000012
42
0.27824916326210519
10
-412.37310862006507
20
21.695374354561118
42
-0.27824916326210469
10
-410.60399996353715
20
22.762500000000003
10
-300.39600003646279
20
22.762500000000003
42
-0.2782491632621048
10
-298.62689137993482
20
21.695374354561118
42
0.27824916326210236
10
-295.25673938924905
20
19.662500000000019
10
-290.74326061075107
20
19.662500000000012
42
0.27824916326210658
10
-287.37310862006524
20
21.69537435456111
42
-0.2782491632621053
10
-285.60399996353726
20
22.762500000000003
10
-175.39600003646274
20
22.762500000000003
42
-0.27824916326210591
10
-173.62689137993476
20
21.695374354561107
42
0.27824916326210847
10
-170.25673938924896
20
19.662499999999984
10
-165.74326061075107
20
19.662500000000012
42
0.27824916326210658
10
-162.37310862006524
20
21.69537435456111
42
-0.2782491632621053
10
-160.60399996353726
20
22.762500000000003
10
-50.396000036462709
20
22.762499999999996
42
-0.27824916326210281
10
-48.626891379934769
20
21.695374354561103
42
0.27824916326210597
10
-45.256739389248978
20
19.662500000000016
10
-40.743260610751037
20
19.662500000000016
42
0.27824916326210597
10
-37.373108620065253
20
21.695374354561107
42
-0.27824916326210231
10
-35.603999963537305
20
22.762500000000003
10
-19.999999999999996
20
22.76250000000001
42
0.41421356237309503
10
-18.000000000000004
20
24.762499999999996
10
-18
20
40.366499963537272
42
-0.27824916326210614
10
-16.932874354561108
20
42.135608620065241
42
0.27824916326210758
10
-14.900000000000004
20
45.50576061075104
10
-14.900000000000011
20
50.019239389249009
42
0.27824916326210647
10
-16.932874354561104
20
53.389391379934786
42
-0.2782491632621053
10
-18
20
55.158500036462748
10
-18
20
114.37899996353727
42
-0.27824916326210636
10
-16.932874354561104
20
116.14810862006523
42
0.27824916326210913
10
-14.9
20
119.51826061075103
10
-14.899999999999988
20
124.03173938924901
42
0.27824916326210791
10
-16.932874354561108
20
127.40189137993481
42
-0.27824916326210591
10
-18
20
129.17100003646277
10
-18
20
144.77500000000003
42
0.41421356237309503
10
-19.999999999999993
20
146.77500000000003
10
-35.603999963537234
20
146.77500000000003
42
-0.27824916326210913
10
-37.373108620065224
20
147.8421256454389
42
0.27824916326210702
10
-40.743260610751015
20
149.875
10
-45.256739389248999
20
149.875
42
0.27824916326210791
10
-48.62689137993479
20
147.8421256454389
42
-0.27824916326210936
10
-50.39600003646278
20
146.77500000000003
10
-160.60399996353723
20
146.77500000000001
42
-0.27824916326210636
10
-162.37310862006521
20
147.8421256454389
42
0.27824916326210042
10
-165.74326061075098
20
149.875
10
-170.25673938924899
20
149.875
42
0.27824916326210514
10
-173.62689137993476
20
147.8421256454389
42
-0.27824916326210636
10
-175.39600003646274
20
146.77500000000003
10
-285.60399996353726
20
146.77500000000001
42
-0.27824916326210636
10
-287.37310862006518
20
147.8421256454389
42
0.27824916326210042
10
-290.74326061075101
20
149.875
10
-295.25673938924899
20
149.875
42
0.27824916326210514
10
-298.62689137993476
20
147.8421256454389
42
-0.27824916326210636
10
-300.39600003646274
20
146.77500000000003
10
-410.60399996353726
20
146.77500000000001
42
-0.2782491632621108
10
-412.37310862006524
20
147.84212564543893
42
0.27824916326211102
10
-415.74326061075101
20
149.87500000000003
10
-420.25673938924899
20
149.875
42
0.27824916326211463
10
-423.62689137993476
20
147.8421256454389
42
-0.27824916326210386
10
-425.39600003646274
20
146.77500000000003
10
-449.57499999999993
20
146.77500000000003
42
0.41421356237309503
10
-451.57499999999999
20
144.77499999999998
10
-451.57500000000005
20
129.17100003646277
42
-0.27824916326211391
10
-452.64212564543897
20
127.40189137993477
42
0.27824916326211369
10
-454.67500000000007
20
124.03173938924897
10
-454.67500000000007
20
119.51826061075107
42
0.27824916326211369
10
-452.64212564543897
20
116.1481086200653
42
-0.27824916326211391
10
-451.57499999999999
20
114.37899996353728
10
-451.57499999999999
20
70.11074020807051
42
-0.27824916326211441
10
-452.64212564543897
20
68.34163155154252
42
0.27824916326211308
10
-454.67500000000007
20
64.971479560856721
10
-454.67500000000007
20
60.458000782358781
42
0.27824916326211308
10
-452.64212564543897
20
57.087848791673025
42
-0.27824916326211441
0
CIRCLE
5
104
100
AcDbEntity
8
0
100
AcDbCircle
10
-451.6749999999999
20
62.714740171607737
30
0
40
1.3499999999999801
210
0
220
-0
230
1
0
CIRCLE
5
105
100
AcDbEntity
8
0
100
AcDbCircle
10
-451.6749999999999
20
121.77500000000002
30
0
40
1.3499999999999801
210
0
220
-0
230
1
0
CIRCLE
5
106
100
AcDbEntity
8
0
100
AcDbCircle
10
-418
20
146.87500000000003
30
0
40
1.3499999999999801
210
0
220
-0
230
1
0
CIRCLE
5
107
100
AcDbEntity
8
0
100
AcDbCircle
10
-293
20
146.87500000000003
30
0
40
1.3500000000000156
210
0
220
-0
230
1
0
CIRCLE
5
108
100
AcDbEntity
8
0
100
AcDbCircle
10
-168
20
146.87500000000003
30
0
40
1.3500000000000156
210
0
220
-0
230
1
0
CIRCLE
5
109
100
AcDbEntity
8
0
100
AcDbCircle
10
-43.000000000000007
20
146.87500000000003
30
0
40
1.3499999999999979
210
0
220
-0
230
1
0
CIRCLE
5
110
100
AcDbEntity
8
0
100
AcDbCircle
10
-418
20
22.662500000000012
30
0
40
1.3499999999999801
210
0
220
-0
230
1
0
CIRCLE
5
111
100
AcDbEntity
8
0
100
AcDbCircle
10
-293
20
22.662500000000012
30
0
40
1.3500000000000156
210
0
220
-0
230
1
0
CIRCLE
5
112
100
AcDbEntity
8
0
100
AcDbCircle
10
-168
20
22.662500000000012
30
0
40
1.3500000000000156
210
0
220
-0
230
1
0
CIRCLE
5
113
100
AcDbEntity
8
0
100
AcDbCircle
10
-17.900000000000002
20
47.76250000000001
30
0
40
1.3500000000000001
210
0
220
-0
230
1
0
CIRCLE
5
114
100
AcDbEntity
8
0
100
AcDbCircle
10
-17.900000000000002
20
121.77500000000002
30
0
40
1.3500000000000001
210
0
220
-0
230
1
0
CIRCLE
5
115
100
AcDbEntity
8
0
100
AcDbCircle
10
-130.01249999999999
20
87.906249999999986
30
0
40
1.3000000000000078
210
0
220
-0
230
1
0
LWPOLYLINE
5
116
100
AcDbEntity
8
0
100
AcDbPolyline
90
8
70
1
43
0.0
10
-375.92500000000001
20
70.625000000000014
10
-388.92500000000007
20
70.625000000000014
42
-0.4142135623730222
10
-389.42500000000001
20
71.125
10
-389.42500000000001
20
84.125000000000014
42
-0.41421356237318868
10
-388.92500000000007
20
84.625
10
-375.92500000000001
20
84.625000000000043
42
-0.4142135623730222
10
-375.42500000000007
20
84.125000000000057
10
-375.42500000000007
20
71.125
42
-0.41421356237310542
0
LWPOLYLINE
5
117
100
AcDbEntity
8
0
100
AcDbPolyline
90
8
70
1
43
0.0
10
-94.937500000000028
20
89.675000000000011
10
-107.9375
20
89.675000000000011
42
-0.41421356237309503
10
-108.4375
20
90.175000000000011
10
-108.43749999999997
20
103.17500000000003
42
-0.41421356237309503
10
-107.9375
20
103.675
10
-94.937500000000028
20
103.67500000000004
42
-0.41421356237309503
10
-94.437500000000014
20
103.17500000000003
10
-94.437500000000014
20
90.175000000000011
42
-0.41421356237309503
0
LWPOLYLINE
5
118
100
AcDbEntity
8
0
100
AcDbPolyline
90
8
70
1
43
0.0
10
-88.887500000000017
20
103.67500000000004
42
0.41421356237309503
10
-89.387500000000017
20
103.17500000000003
10
-89.387500000000017
20
90.175000000000011
42
0.41421356237309503
10
-88.887500000000017
20
89.675000000000011
10
-75.887500000000003
20
89.675000000000011
42
0.41421356237309503
10
-75.387499999999989
20
90.175000000000011
10
-75.387499999999989
20
103.17500000000003
42
0.41421356237308982
10
-75.887499999999989
20
103.67500000000004
0
LWPOLYLINE
5
119
100
AcDbEntity
8
0
100
AcDbPolyline
90
8
70
1
43
0.0
10
-327.01250000000005
20
65.575000000000017
10
-314.01249999999999
20
65.574999999999989
42
-0.41421356237312101
10
-313.51250000000005
20
65.075000000000045
10
-313.51249999999999
20
52.074999999999996
42
-0.414213562373069
10
-314.01249999999999
20
51.575000000000003
10
-327.01250000000005
20
51.575000000000017
42
-0.4142135623730222
10
-327.51249999999999
20
52.075000000000003
10
-327.51249999999999
20
65.075000000000017
42
-0.41421356237311585
0
LWPOLYLINE
5
120
100
AcDbEntity
8
0
100
AcDbPolyline
90
8
70
1
43
0.0
10
-80.150000000000006
20
65.075000000000003
10
-80.150000000000006
20
52.074999999999996
42
-0.4142135623730846
10
-80.650000000000006
20
51.575000000000003
10
-93.65000000000002
20
51.574999999999996
42
-0.41421356237310025
10
-94.150000000000034
20
52.075000000000017
10
-94.150000000000034
20
65.075000000000003
42
-0.41421356237310542
10
-93.65000000000002
20
65.575000000000003
10
-80.650000000000006
20
65.575000000000017
42
-0.41421356237310025
0
LWPOLYLINE
5
121
100
AcDbEntity
8
0
100
AcDbPolyline
90
20
70
1
43
0.0
10
-446.57499999999999
20
109.22499999999999
42
0.4142135623730222
10
-446.07500000000005
20
108.72500000000001
10
-433.07499999999999
20
108.72499999999999
42
0.41421356237313667
10
-432.57499999999993
20
109.22499999999999
10
-432.57499999999999
20
109.81200000000001
10
-432.07500000000005
20
109.81200000000001
42
0.41421356237313667
10
-431.57499999999999
20
110.31200000000001
10
-431.57500000000005
20
116.312
42
0.4142135623730222
10
-432.07500000000005
20
116.81200000000001
10
-432.57499999999999
20
116.81200000000001
10
-432.57499999999999
20
133.68799999999999
10
-432.07500000000005
20
133.68799999999999
42
0.41421356237313667
10
-431.57500000000005
20
134.18800000000002
10
-431.57500000000005
20
140.18799999999999
42
0.4142135623730222
10
-432.07500000000005
20
140.68799999999999
10
-432.57499999999999
20
140.68799999999999
10
-432.57499999999999
20
141.27500000000001
42
0.4142135623730222
10
-433.07499999999999
20
141.77499999999998
10
-446.07499999999993
20
141.77500000000003
42
0.41421356237313667
10
-446.57499999999999
20
141.27500000000001
0
LWPOLYLINE
5
122
100
AcDbEntity
8
0
100
AcDbPolyline
90
8
70
1
43
0.0
10
-123.01249999999999
20
122.22499999999999
42
0.41421356237309503
10
-123.5125
20
122.72500000000001
10
-136.51250000000002
20
122.72500000000001
42
0.41421356237309503
10
-137.01250000000002
20
122.22499999999999
10
-137.01250000000002
20
109.22499999999999
42
0.41421356237309503
10
-136.51250000000002
20
108.72499999999999
10
-123.5125
20
108.72500000000002
42
0.41421356237309503
10
-123.01249999999999
20
109.22499999999999
0
CIRCLE
5
123
100
AcDbEntity
8
0
100
AcDbCircle
10
-434.45564150943392
20
44.889641509433957
30
0
40
1.3000000000000256
210
0
220
-0
230
1
0
LWPOLYLINE
5
124
100
AcDbEntity
8
0
100
AcDbPolyline
90
8
70
1
43
0.0
10
-66.362499999999997
20
108.72500000000002
42
0.41421356237310025
10
-65.862500000000011
20
109.22499999999999
10
-65.862499999999997
20
122.22499999999999
42
0.4142135623730846
10
-66.362499999999983
20
122.72500000000001
10
-79.362499999999997
20
122.72500000000001
42
0.41421356237309503
10
-79.862499999999997
20
122.22499999999999
10
-79.862499999999997
20
109.22499999999999
42
0.41421356237312101
10
-79.362499999999997
20
108.72500000000001
0
LWPOLYLINE
5
125
100
AcDbEntity
8
0
100
AcDbPolyline
90
20
70
1
43
0.0
10
-446.07500000000005
20
103.67500000000004
42
0.41421356237312623
10
-446.57499999999999
20
103.17500000000003
10
-446.57499999999999
20
71.125
42
0.4142135623730222
10
-446.07500000000005
20
70.625000000000028
10
-433.07499999999999
20
70.625000000000014
42
0.41421356237318868
10
-432.57499999999999
20
71.125
10
-432.57499999999999
20
71.712000000000003
10
-432.07500000000005
20
71.712000000000003
42
0.41421356237319906
10
-431.57500000000005
20
72.212000000000003
10
-431.57500000000005
20
78.212000000000003
42
0.4142135623730222
10
-432.07500000000005
20
78.712000000000003
10
-432.57499999999999
20
78.712000000000003
10
-432.57499999999999
20
95.588000000000022
10
-432.07500000000005
20
95.588000000000022
42
0.41421356237318868
10
-431.57499999999999
20
96.088000000000008
10
-431.57499999999999
20
102.08799999999999
42
0.41421356237309503
10
-432.07500000000005
20
102.58800000000001
10
-432.57499999999999
20
102.58800000000001
10
-432.57499999999999
20
103.17500000000003
42
0.4142135623730222
10
-433.07499999999999
20
103.675
0
LWPOLYLINE
5
126
100
AcDbEntity
8
0
100
AcDbPolyline
90
8
70
1
43
0.0
10
-57.344250000000009
20
109.22499999999999
42
0.41421356237309503
10
-56.844250000000002
20
108.72499999999999
10
-50.844250000000002
20
108.72500000000002
42
0.41421356237310025
10
-50.344250000000031
20
109.22499999999999
10
-50.344250000000002
20
123.22500000000002
42
0.41421356237308982
10
-50.844250000000002
20
123.72500000000002
10
-56.844250000000002
20
123.72500000000002
42
0.41421356237309503
10
-57.344250000000009
20
123.22500000000002
0
LWPOLYLINE
5
127
100
AcDbEntity
8
0
100
AcDbPolyline
90
8
70
1
43
0.0
10
-48.90625
20
109.22499999999999
10
-48.906250000000007
20
122.22499999999999
42
-0.41421356237309503
10
-48.40625
20
122.72500000000001
10
-35.40625
20
122.72500000000001
42
-0.41421356237309243
10
-34.90625
20
122.22499999999999
10
-34.906250000000028
20
109.22499999999999
42
-0.41421356237309764
10
-35.40625
20
108.72500000000002
10
-48.40625
20
108.72499999999999
42
-0.41421356237308982
0
LWPOLYLINE
5
128
100
AcDbEntity
8
0
100
AcDbPolyline
90
8
70
1
43
0.0
10
-204.47500000000002
20
27.76250000000001
10
-217.47500000000002
20
27.762499999999992
42
-0.41421356237310281
10
-217.97500000000002
20
28.262500000000014
10
-217.97499999999999
20
41.262500000000003
42
-0.4142135623730222
10
-217.47500000000002
20
41.762500000000003
10
-204.47500000000005
20
41.762499999999996
42
-0.41421356237312623
10
-203.97500000000005
20
41.262500000000003
10
-203.97500000000002
20
28.262499999999999
42
-0.41421356237313145
0
LWPOLYLINE
5
129
100
AcDbEntity
8
0
100
AcDbPolyline
90
8
70
1
43
0.0
10
-103.17499999999998
20
84.625000000000028
10
-90.175000000000011
20
84.625000000000028
42
-0.41421356237309503
10
-89.675000000000011
20
84.125000000000014
10
-89.675000000000011
20
71.125
42
-0.41421356237310542
10
-90.175000000000011
20
70.625000000000014
10
-103.17499999999998
20
70.624999999999986
42
-0.41421356237310025
10
-103.675
20
71.125
10
-103.675
20
84.125000000000014
42
-0.41421356237309503
0
LWPOLYLINE
5
130
100
AcDbEntity
8
0
100
AcDbPolyline
90
8
70
1
43
0.0
10
-227.50000000000003
20
52.075000000000003
42
0.41421356237312101
10
-227.00000000000003
20
51.575000000000024
10
-214.00000000000003
20
51.575000000000003
42
0.414213562373069
10
-213.5
20
52.074999999999996
10
-213.5
20
65.075000000000003
42
0.41421356237313667
10
-214.00000000000003
20
65.575000000000017
10
-227.00000000000003
20
65.575000000000003
42
0.4142135623730222
10
-227.50000000000003
20
65.075000000000003
0
LWPOLYLINE
5
131
100
AcDbEntity
8
0
100
AcDbPolyline
90
8
70
1
43
0.0
10
-352.11250000000001
20
70.625000000000014
42
0.41421356237318868
10
-351.61250000000001
20
71.125
10
-351.61250000000001
20
84.125000000000014
42
0.4142135623730222
10
-352.11250000000001
20
84.624999999999986
10
-365.11250000000007
20
84.625
42
0.41421356237310542
10
-365.61250000000001
20
84.125000000000014
10
-365.61250000000001
20
71.125
42
0.4142135623730222
10
-365.11250000000007
20
70.625000000000028
0
LWPOLYLINE
5
132
100
AcDbEntity
8
0
100
AcDbPolyline
90
8
70
1
43
0.0
10
-204.47500000000002
20
70.625000000000014
42
0.41421356237307422
10
-203.97499999999997
20
71.125
10
-203.97500000000002
20
84.125000000000014
42
0.41421356237313667
10
-204.47500000000002
20
84.625000000000028
10
-217.47500000000002
20
84.625000000000028
42
0.41421356237310542
10
-217.97500000000002
20
84.125000000000014
10
-217.97500000000002
20
71.125
42
0.41421356237312623
10
-217.47500000000002
20
70.625
0
LWPOLYLINE
5
133
100
AcDbEntity
8
0
100
AcDbPolyline
90
8
70
1
43
0.0
10
-233.05000000000004
20
27.762500000000003
42
0.41421356237313406
10
-232.55000000000001
20
28.262500000000003
10
-232.55000000000001
20
41.262500000000003
42
0.41421356237313667
10
-233.05000000000004
20
41.762500000000017
10
-246.05000000000004
20
41.762500000000003
42
0.4142135623730222
10
-246.55000000000004
20
41.262500000000003
10
-246.55000000000004
20
28.262500000000003
42
0.41421356237310281
10
-246.05000000000004
20
27.762499999999992
0
LWPOLYLINE
5
134
100
AcDbEntity
8
0
100
AcDbPolyline
90
8
70
1
43
0.0
10
-433.07499999999999
20
51.575000000000003
42
0.41421356237319906
10
-432.57499999999999
20
52.075000000000003
10
-432.57499999999999
20
65.075000000000003
42
0.4142135623730222
10
-433.07499999999999
20
65.574999999999974
10
-446.07500000000005
20
65.575000000000003
42
0.41421356237310542
10
-446.57499999999999
20
65.075000000000003
10
-446.57499999999999
20
52.074999999999974
42
0.4142135623730222
10
-446.07500000000005
20
51.575000000000003
0
LWPOLYLINE
5
135
100
AcDbEntity
8
0
100
AcDbPolyline
90
8
70
1
43
0.0
10
-190.18750000000006
20
89.675000000000011
10
-203.18750000000006
20
89.675000000000011
42
-0.41421356237313667
10
-203.68750000000006
20
90.175000000000011
10
-203.68750000000006
20
103.17500000000003
42
-0.41421356237313667
10
-203.18750000000006
20
103.67500000000004
10
-190.18750000000006
20
103.67500000000005
42
-0.41421356237310542
10
-189.68750000000003
20
103.17500000000003
10
-189.68750000000006
20
90.175000000000011
42
-0.41421356237310542
0
LWPOLYLINE
5
136
100
AcDbEntity
8
0
100
AcDbPolyline
90
8
70
1
43
0.0
10
-290.20000000000005
20
27.762500000000003
42
0.41421356237312362
10
-289.69999999999999
20
28.262500000000003
10
-289.70000000000005
20
41.262500000000003
42
0.41421356237312623
10
-290.20000000000005
20
41.762500000000017
10
-303.20000000000005
20
41.762500000000003
42
0.41421356237307422
10
-303.70000000000005
20
41.262500000000003
10
-303.70000000000005
20
28.262500000000014
42
0.41421356237313406
10
-303.20000000000005
20
27.76250000000001
0
LWPOLYLINE
5
137
100
AcDbEntity
8
0
100
AcDbPolyline
90
8
70
1
43
0.0
10
-199.21250000000001
20
122.22499999999999
42
0.41421356237313667
10
-199.71250000000001
20
122.72500000000001
10
-212.71250000000003
20
122.72500000000001
42
0.41421356237310542
10
-213.21250000000003
20
122.22499999999999
10
-213.21250000000003
20
109.22499999999999
42
0.41421356237310542
10
-212.71250000000003
20
108.72500000000002
10
-199.71250000000001
20
108.72500000000002
42
0.41421356237311585
10
-199.21250000000001
20
109.22499999999999
0
LWPOLYLINE
5
138
100
AcDbEntity
8
0
100
AcDbPolyline
90
8
70
1
43
0.0
10
-188.90000000000001
20
65.575000000000003
42
0.4142135623730222
10
-189.39999999999998
20
65.075000000000003
10
-189.40000000000001
20
52.075000000000017
42
0.41421356237312623
10
-188.90000000000001
20
51.575000000000003
10
-175.90000000000001
20
51.575000000000003
42
0.414213562373069
10
-175.39999999999998
20
52.074999999999996
10
-175.39999999999998
20
65.075000000000003
42
0.41421356237313667
10
-175.90000000000001
20
65.575000000000017
0
LWPOLYLINE
5
139
100
AcDbEntity
8
0
100
AcDbPolyline
90
14
70
1
43
0.0
10
-229.88125000000002
20
128.27500000000001
10
-229.88125000000002
20
141.27500000000001
42
-0.41421356237313667
10
-229.38125000000002
20
141.77500000000003
10
-224.00000000000003
20
141.77500000000003
10
-224.00000000000006
20
142.27499999999998
42
-0.41421356237313667
10
-223.50000000000006
20
142.77500000000001
10
-217.50000000000003
20
142.77500000000001
42
-0.41421356237313667
10
-217.00000000000003
20
142.27499999999998
10
-217.00000000000003
20
141.77500000000003
10
-216.38125000000002
20
141.77500000000003
42
-0.41421356237310542
10
-215.88125000000002
20
141.27500000000001
10
-215.88125000000005
20
128.27500000000001
42
-0.41421356237310542
10
-216.38125000000002
20
127.77500000000001
10
-229.38125000000002
20
127.77500000000001
42
-0.41421356237313667
0
LWPOLYLINE
5
140
100
AcDbEntity
8
0
100
AcDbPolyline
90
8
70
1
43
0.0
10
-408.47499999999997
20
90.175000000000011
10
-408.47499999999997
20
103.17500000000003
42
-0.4142135623730222
10
-407.97500000000002
20
103.675
10
-394.97499999999997
20
103.67500000000001
42
-0.4142135623730222
10
-394.47499999999997
20
103.17500000000003
10
-394.47499999999991
20
90.175000000000011
42
-0.41421356237313667
10
-394.97499999999997
20
89.675000000000011
10
-407.97500000000002
20
89.675000000000026
42
-0.4142135623730222
0
LWPOLYLINE
5
141
100
AcDbEntity
8
0
100
AcDbPolyline
90
8
70
1
43
0.0
10
-184.92500000000001
20
41.262500000000003
10
-184.92500000000001
20
28.262499999999999
42
-0.41421356237313145
10
-185.42500000000001
20
27.762500000000003
10
-198.42500000000001
20
27.762499999999982
42
-0.41421356237310281
10
-198.92500000000001
20
28.262500000000003
10
-198.92499999999998
20
41.262500000000003
42
-0.4142135623730222
10
-198.42500000000001
20
41.762500000000003
10
-185.42500000000001
20
41.762500000000017
42
-0.41421356237313667
0
LWPOLYLINE
5
142
100
AcDbEntity
8
0
100
AcDbPolyline
90
8
70
1
43
0.0
10
-271.15000000000003
20
27.76250000000001
10
-284.15000000000003
20
27.76250000000001
42
-0.41421356237313406
10
-284.65000000000003
20
28.262500000000014
10
-284.64999999999998
20
41.262500000000003
42
-0.4142135623730222
10
-284.14999999999998
20
41.762500000000003
10
-271.15000000000003
20
41.762499999999996
42
-0.41421356237312623
10
-270.65000000000003
20
41.262500000000003
10
-270.65000000000003
20
28.262499999999999
42
-0.41421356237312101
0
LWPOLYLINE
5
143
100
AcDbEntity
8
0
100
AcDbPolyline
90
8
70
1
43
0.0
10
-232.26250000000005
20
109.22499999999999
10
-232.26249999999999
20
122.22499999999999
42
-0.41421356237310542
10
-231.76250000000005
20
122.72500000000001
10
-218.76250000000002
20
122.72500000000001
42
-0.41421356237313667
10
-218.26250000000002
20
122.22499999999999
10
-218.26250000000002
20
109.22499999999999
42
-0.41421356237311585
10
-218.76250000000002
20
108.72500000000002
10
-231.76250000000005
20
108.72499999999997
42
-0.41421356237310542
0
LWPOLYLINE
5
144
100
AcDbEntity
8
0
100
AcDbPolyline
90
8
70
1
43
0.0
10
-237.31250000000003
20
122.22499999999999
10
-237.31250000000003
20
109.22499999999999
42
-0.41421356237313667
10
-237.81250000000003
20
108.72499999999999
10
-250.81250000000006
20
108.72499999999997
42
-0.41421356237310542
10
-251.31250000000006
20
109.22499999999999
10
-251.3125
20
122.22499999999999
42
-0.41421356237310542
10
-250.81250000000006
20
122.72500000000001
10
-237.81250000000003
20
122.72500000000001
42
-0.41421356237313667
0
LWPOLYLINE
5
145
100
AcDbEntity
8
0
100
AcDbPolyline
90
8
70
1
43
0.0
10
-204.44375000000005
20
142.77500000000001
10
-198.44375000000002
20
142.77500000000001
42
-0.41421356237313667
10
-197.94375000000002
20
142.27499999999998
10
-197.94375000000002
20
128.27500000000001
42
-0.41421356237313667
10
-198.44375000000002
20
127.77500000000001
10
-204.44375000000005
20
127.77500000000006
42
-0.41421356237311585
10
-204.94375000000002
20
128.27500000000001
10
-204.94375000000005
20
142.27499999999998
42
-0.41421356237313667
0
LWPOLYLINE
5
146
100
AcDbEntity
8
0
100
AcDbPolyline
90
8
70
1
43
0.0
10
-208.73750000000001
20
103.17500000000003
42
0.41421356237313667
10
-209.23750000000001
20
103.67500000000004
10
-222.23750000000001
20
103.675
42
0.41421356237309503
10
-222.73750000000004
20
103.17500000000003
10
-222.73750000000004
20
90.175000000000011
42
0.41421356237310542
10
-222.23750000000001
20
89.675000000000011
10
-209.23750000000001
20
89.675000000000011
42
0.41421356237313667
10
-208.73750000000001
20
90.175000000000011
0
LWPOLYLINE
5
147
100
AcDbEntity
8
0
100
AcDbPolyline
90
8
70
1
43
0.0
10
-207.95000000000002
20
65.575000000000003
42
0.4142135623730222
10
-208.44999999999999
20
65.075000000000003
10
-208.45000000000002
20
52.075000000000003
42
0.41421356237312101
10
-207.95000000000002
20
51.574999999999989
10
-194.95000000000005
20
51.575000000000003
42
0.41421356237301699
10
-194.45000000000005
20
52.074999999999996
10
-194.45000000000005
20
65.075000000000003
42
0.41421356237312623
10
-194.95000000000005
20
65.575000000000017
0
LWPOLYLINE
5
148
100
AcDbEntity
8
0
100
AcDbPolyline
90
8
70
1
43
0.0
10
-394.97499999999997
20
108.72500000000002
42
0.4142135623730222
10
-394.47499999999997
20
109.22499999999999
10
-394.47499999999997
20
122.22499999999999
42
0.4142135623730222
10
-394.97499999999997
20
122.72499999999997
10
-407.97500000000002
20
122.72500000000001
42
0.41421356237312623
10
-408.47499999999997
20
122.22499999999999
10
-408.47499999999997
20
109.22499999999999
42
0.4142135623730222
10
-407.97500000000002
20
108.72500000000002
0
LWPOLYLINE
5
149
100
AcDbEntity
8
0
100
AcDbPolyline
90
8
70
1
43
0.0
10
-375.92500000000001
20
89.675000000000011
10
-388.92500000000007
20
89.675000000000026
42
-0.4142135623730222
10
-389.42500000000001
20
90.175000000000011
10
-389.42500000000007
20
103.17500000000003
42
-0.41421356237313667
10
-388.92500000000007
20
103.67500000000004
10
-375.92500000000001
20
103.67500000000001
42
-0.4142135623730222
10
-375.42500000000007
20
103.17500000000003
10
-375.42500000000007
20
90.175000000000011
42
-0.41421356237312623
0
LWPOLYLINE
5
150
100
AcDbEntity
8
0
100
AcDbPolyline
90
8
70
1
43
0.0
10
-198.92500000000001
20
71.125
10
-198.92499999999998
20
84.125000000000014
42
-0.41421356237307422
10
-198.42500000000001
20
84.625
10
-185.42500000000001
20
84.625000000000028
42
-0.41421356237313667
10
-184.92500000000001
20
84.125000000000014
10
-184.92499999999995
20
71.125
42
-0.41421356237307422
10
-185.42500000000001
20
70.625000000000014
10
-198.42500000000001
20
70.625000000000014
42
-0.41421356237312623
0
LWPOLYLINE
5
151
100
AcDbEntity
8
0
100
AcDbPolyline
90
8
70
1
43
0.0
10
-49.193750000000009
20
141.27500000000001
10
-49.193749999999994
20
128.27500000000001
42
-0.41421356237309503
10
-49.693750000000001
20
127.77500000000001
10
-65.075000000000003
20
127.77500000000001
42
-0.41421356237310542
10
-65.575000000000003
20
128.27500000000001
10
-65.575000000000017
20
141.27500000000001
42
-0.41421356237310025
10
-65.075000000000003
20
141.77500000000003
10
-49.693750000000001
20
141.77500000000003
42
-0.41421356237308982
0
LWPOLYLINE
5
152
100
AcDbEntity
8
0
100
AcDbPolyline
90
8
70
1
43
0.0
10
-166.37500000000003
20
27.762500000000003
42
0.41421356237312362
10
-165.875
20
28.262500000000003
10
-165.87500000000003
20
41.262500000000003
42
0.41421356237312623
10
-166.37500000000003
20
41.762500000000017
10
-179.37500000000003
20
41.762500000000003
42
0.41421356237307422
10
-179.87500000000006
20
41.262500000000003
10
-179.87500000000006
20
28.262500000000003
42
0.41421356237313406
10
-179.37500000000003
20
27.762499999999992
0
LWPOLYLINE
5
153
100
AcDbEntity
8
0
100
AcDbPolyline
90
8
70
1
43
0.0
10
-256.07500000000005
20
71.125
10
-256.07500000000005
20
84.125000000000014
42
-0.4142135623730846
10
-255.57500000000002
20
84.625
10
-242.57500000000005
20
84.625000000000028
42
-0.41421356237313667
10
-242.07500000000005
20
84.125000000000014
10
-242.07499999999999
20
71.125
42
-0.41421356237307422
10
-242.57500000000005
20
70.625000000000014
10
-255.57500000000002
20
70.625
42
-0.41421356237313667
0
LWPOLYLINE
5
154
100
AcDbEntity
8
0
100
AcDbPolyline
90
8
70
1
43
0.0
10
-394.97499999999997
20
70.625000000000014
42
0.41421356237318868
10
-394.47499999999997
20
71.125
10
-394.47499999999997
20
84.125000000000014
42
0.4142135623730222
10
-394.97499999999997
20
84.625000000000028
10
-407.97500000000002
20
84.625000000000028
42
0.41421356237312623
10
-408.47499999999997
20
84.125000000000014
10
-408.47499999999997
20
71.125
42
0.4142135623730222
10
-407.97500000000002
20
70.625000000000028
0
LWPOLYLINE
5
155
100
AcDbEntity
8
0
100
AcDbPolyline
90
8
70
1
43
0.0
10
-260.33750000000003
20
103.67500000000004
42
0.41421356237313667
10
-260.83750000000003
20
103.17500000000003
10
-260.83750000000003
20
90.175000000000011
42
0.41421356237313667
10
-260.33750000000003
20
89.675000000000011
10
-247.33750000000001
20
89.675000000000011
42
0.41421356237310542
10
-246.83750000000001
20
90.175000000000011
10
-246.83750000000001
20
103.17500000000003
42
0.41421356237310542
10
-247.33750000000001
20
103.67500000000004
0
LWPOLYLINE
5
156
100
AcDbEntity
8
0
100
AcDbPolyline
90
8
70
1
43
0.0
10
-273.53125
20
108.72499999999999
42
0.41421356237313667
10
-273.03125
20
109.22499999999999
10
-273.03125
20
122.22499999999999
42
0.41421356237313667
10
-273.53125
20
122.72500000000001
10
-286.53125
20
122.72500000000001
42
0.41421356237310542
10
-287.03125000000006
20
122.22499999999999
10
-287.03125000000006
20
109.22499999999999
42
0.41421356237310542
10
-286.53125
20
108.72499999999999
0
LWPOLYLINE
5
157
100
AcDbEntity
8
0
100
AcDbPolyline
90
8
70
1
43
0.0
10
-277.79375000000005
20
103.17500000000003
10
-277.79375000000005
20
90.175000000000011
42
-0.41421356237313667
10
-278.29375000000005
20
89.675000000000011
10
-291.29375000000005
20
89.674999999999997
42
-0.41421356237310542
10
-291.79375000000005
20
90.175000000000011
10
-291.79374999999999
20
103.17500000000003
42
-0.41421356237309503
10
-291.29375000000005
20
103.675
10
-278.29375000000005
20
103.67500000000004
42
-0.41421356237313667
0
LWPOLYLINE
5
158
100
AcDbEntity
8
0
100
AcDbPolyline
90
8
70
1
43
0.0
10
-327.51249999999999
20
128.27499999999998
10
-327.51249999999999
20
141.27500000000001
42
-0.41421356237312623
10
-327.01250000000005
20
141.77500000000003
10
-314.01249999999999
20
141.77499999999998
42
-0.41421356237311585
10
-313.51250000000005
20
141.27500000000003
10
-313.51249999999999
20
128.27500000000001
42
-0.41421356237313667
10
-314.01249999999999
20
127.77500000000001
10
-327.01250000000005
20
127.77499999999998
42
-0.4142135623730222
0
LWPOLYLINE
5
159
100
AcDbEntity
8
0
100
AcDbPolyline
90
8
70
1
43
0.0
10
-241.78750000000005
20
90.175000000000011
10
-241.78750000000002
20
103.17500000000003
42
-0.41421356237309503
10
-241.28750000000002
20
103.675
10
-228.28750000000002
20
103.67500000000004
42
-0.41421356237313667
10
-227.78750000000002
20
103.17500000000003
10
-227.78750000000002
20
90.175000000000011
42
-0.41421356237313667
10
-228.28750000000002
20
89.675000000000011
10
-241.28750000000002
20
89.674999999999997
42
-0.41421356237310542
0
LWPOLYLINE
5
160
100
AcDbEntity
8
0
100
AcDbPolyline
90
8
70
1
43
0.0
10
-122.22500000000004
20
84.625
42
0.41421356237313667
10
-122.72500000000002
20
84.125000000000014
10
-122.72500000000001
20
71.125
42
0.41421356237310025
10
-122.22499999999999
20
70.625
10
-109.22500000000002
20
70.625000000000014
42
0.41421356237310542
10
-108.72500000000002
20
71.125
10
-108.72500000000002
20
84.125000000000014
42
0.41421356237309503
10
-109.22500000000002
20
84.625000000000028
0
LWPOLYLINE
5
161
100
AcDbEntity
8
0
100
AcDbPolyline
90
8
70
1
43
0.0
10
-352.11250000000001
20
127.77500000000001
10
-365.11250000000007
20
127.77500000000002
42
-0.4142135623730222
10
-365.61250000000001
20
128.27500000000001
10
-365.61250000000001
20
141.27500000000001
42
-0.41421356237313667
10
-365.11249999999995
20
141.77500000000003
10
-352.11250000000001
20
141.77500000000001
42
-0.4142135623730222
10
-351.61250000000001
20
141.27500000000001
10
-351.61249999999995
20
128.27500000000001
42
-0.41421356237313667
0
LWPOLYLINE
5
162
100
AcDbEntity
8
0
100
AcDbPolyline
90
8
70
1
43
0.0
10
-299.73175000000003
20
104.67500000000001
10
-293.73174999999998
20
104.67499999999994
42
-0.41421356237311585
10
-293.23175000000003
20
104.17500000000001
10
-293.23174999999998
20
90.175000000000011
42
-0.41421356237313667
10
-293.73174999999998
20
89.675000000000011
10
-299.73175000000003
20
89.675000000000011
42
-0.41421356237313667
10
-300.23175000000003
20
90.175000000000011
10
-300.23175000000003
20
104.17500000000001
42
-0.41421356237313667
0
LWPOLYLINE
5
163
100
AcDbEntity
8
0
100
AcDbPolyline
90
8
70
1
43
0.0
10
-295.46924999999999
20
109.22499999999999
42
0.41421356237313667
10
-294.96924999999999
20
108.72499999999999
10
-288.96925000000005
20
108.72499999999999
42
0.41421356237310542
10
-288.46925000000005
20
109.22499999999999
10
-288.46925000000005
20
123.22500000000002
42
0.41421356237310542
10
-288.96925000000005
20
123.72500000000002
10
-294.96924999999999
20
123.72500000000002
42
0.41421356237313667
10
-295.46924999999999
20
123.22500000000002
0
LWPOLYLINE
5
164
100
AcDbEntity
8
0
100
AcDbPolyline
90
8
70
1
43
0.0
10
-301.31875000000002
20
128.27500000000001
42
0.41421356237313667
10
-300.81875000000002
20
127.77500000000001
10
-285.4375
20
127.77500000000001
42
0.41421356237310542
10
-284.9375
20
128.27500000000001
10
-284.9375
20
141.27500000000001
42
0.41421356237310542
10
-285.4375
20
141.77500000000003
10
-300.81875000000002
20
141.77500000000003
42
0.41421356237313667
10
-301.31875000000002
20
141.27500000000001
0
LWPOLYLINE
5
165
100
AcDbEntity
8
0
100
AcDbPolyline
90
8
70
1
43
0.0
10
-253.19375000000002
20
141.77500000000003
10
-237.81250000000003
20
141.77500000000003
42
-0.41421356237313667
10
-237.31250000000003
20
141.27500000000001
10
-237.31250000000003
20
128.27500000000001
42
-0.41421356237313667
10
-237.81250000000003
20
127.77500000000001
10
-253.19375000000002
20
127.77499999999998
42
-0.41421356237310542
10
-253.69375000000002
20
128.27500000000001
10
-253.69374999999997
20
141.27500000000001
42
-0.41421356237310542
0
LWPOLYLINE
5
166
100
AcDbEntity
8
0
100
AcDbPolyline
90
8
70
1
43
0.0
10
-427.52499999999998
20
71.125
10
-427.52499999999998
20
84.125000000000014
42
-0.41421356237310542
10
-427.02499999999998
20
84.625
10
-414.02499999999998
20
84.625
42
-0.4142135623730222
10
-413.52499999999998
20
84.125000000000014
10
-413.52499999999998
20
71.125
42
-0.41421356237318868
10
-414.02499999999998
20
70.625000000000014
10
-427.02499999999998
20
70.625000000000014
42
-0.4142135623730222
0
LWPOLYLINE
5
167
100
AcDbEntity
8
0
100
AcDbPolyline
90
8
70
1
43
0.0
10
-332.5625
20
141.27500000000001
42
0.4142135623730222
10
-333.0625
20
141.77500000000001
10
-346.06249999999994
20
141.77500000000003
42
0.41421356237313667
10
-346.5625
20
141.27500000000001
10
-346.5625
20
128.27500000000001
42
0.4142135623730222
10
-346.0625
20
127.77500000000003
10
-333.0625
20
127.77500000000001
42
0.41421356237313667
10
-332.5625
20
128.27500000000001
0
LWPOLYLINE
5
168
100
AcDbEntity
8
0
100
AcDbPolyline
90
8
70
1
43
0.0
10
-332.5625
20
122.22499999999999
10
-332.56249999999994
20
109.22499999999999
42
-0.41421356237313667
10
-333.0625
20
108.72499999999999
10
-346.0625
20
108.72500000000001
42
-0.4142135623730222
10
-346.5625
20
109.22499999999999
10
-346.5625
20
122.22499999999999
42
-0.41421356237312623
10
-346.0625
20
122.72500000000001
10
-333.0625
20
122.72499999999999
42
-0.4142135623730222
0
CIRCLE
5
169
100
AcDbEntity
8
0
100
AcDbCircle
10
-429.29374999999993
20
125.25
30
0
40
1.3000000000000256
210
0
220
-0
230
1
0
CIRCLE
5
170
100
AcDbEntity
8
0
100
AcDbCircle
10
-370.51900000000001
20
32.762500000000003
30
0
40
1.3000000000000256
210
0
220
-0
230
1
0
CIRCLE
5
171
100
AcDbEntity
8
0
100
AcDbCircle
10
-370.51875000000001
20
87.15000000000002
30
0
40
1.3000000000000256
210
0
220
-0
230
1
0
CIRCLE
5
172
100
AcDbEntity
8
0
100
AcDbCircle
10
-45.478000000000009
20
128.24300000000002
30
0
40
1.2999999999999989
210
0
220
-0
230
1
0
CIRCLE
5
173
100
AcDbEntity
8
0
100
AcDbCircle
10
-429.29375000000005
20
106.19999999999999
30
0
40
1.3000000000000256
210
0
220
-0
230
1
0
LWPOLYLINE
5
174
100
AcDbEntity
8
0
100
AcDbPolyline
90
8
70
1
43
0.0
10
-252.10000000000002
20
51.575000000000003
10
-265.10000000000002
20
51.575000000000003
42
-0.41421356237313667
10
-265.60000000000002
20
52.075000000000017
10
-265.60000000000008
20
65.075000000000003
42
-0.41421356237307422
10
-265.10000000000002
20
65.575000000000003
10
-252.10000000000002
20
65.574999999999989
42
-0.41421356237312623
10
-251.59999999999999
20
65.075000000000003
10
-251.60000000000002
20
52.074999999999996
42
-0.41421356237301699
0
LWPOLYLINE
5
175
100
AcDbEntity
8
0
100
AcDbPolyline
90
8
70
1
43
0.0
10
-109.70000000000002
20
128.27500000000001
10
-109.70000000000002
20
142.27499999999998
42
-0.41421356237309503
10
-109.20000000000002
20
142.77500000000001
10
-98.443750000000023
20
142.77500000000001
42
-0.41421356237309503
10
-97.943750000000023
20
142.27499999999998
10
-97.943750000000023
20
128.27500000000001
42
-0.41421356237309503
10
-98.443750000000023
20
127.77500000000001
10
-109.20000000000002
20
127.77500000000001
42
-0.41421356237309503
0
LWPOLYLINE
5
176
100
AcDbEntity
8
0
100
AcDbPolyline
90
8
70
1
43
0.0
10
-442.49999999999994
20
21.000000000000007
42
0.41421356237321727
10
-441.99999999999989
20
21.500000000000004
10
-441.99999999999989
20
38.5
42
0.41421356237326412
10
-442.49999999999994
20
39.000000000000021
10
-455.69999999999999
20
38.999999999999964
42
0.41421356237331353
10
-456.19999999999999
20
38.500000000000014
10
-456.20000000000005
20
21.500000000000004
42
0.41421356237326151
10
-455.69999999999999
20
20.999999999999979
0
LWPOLYLINE
5
177
100
AcDbEntity
8
0
100
AcDbPolyline
90
8
70
1
43
0.0
10
-117.46250000000001
20
122.72500000000001
10
-104.46250000000003
20
122.72500000000001
42
-0.41421356237309503
10
-103.96250000000002
20
122.22499999999999
10
-103.96250000000002
20
109.22499999999999
42
-0.41421356237309503
10
-104.46250000000003
20
108.72499999999999
10
-117.46250000000001
20
108.72499999999999
42
-0.41421356237309503
10
-117.96250000000001
20
109.22499999999999
10
-117.96250000000001
20
122.22499999999999
42
-0.41421356237309503
0
LWPOLYLINE
5
178
100
AcDbEntity
8
0
100
AcDbPolyline
90
8
70
1
43
0.0
10
-113.2
20
28.262500000000017
10
-113.20000000000005
20
41.262500000000003
42
-0.41421356237310542
10
-112.70000000000003
20
41.762500000000003
10
-99.700000000000017
20
41.762500000000024
42
-0.41421356237310025
10
-99.200000000000017
20
41.262500000000003
10
-99.200000000000017
20
28.262499999999999
42
-0.41421356237310542
10
-99.700000000000017
20
27.762500000000003
10
-112.69999999999999
20
27.762500000000006
42
-0.41421356237309764
0
LWPOLYLINE
5
179
100
AcDbEntity
8
0
100
AcDbPolyline
90
8
70
1
43
0.0
10
-88.887500000000017
20
141.77500000000003
10
-73.506250000000009
20
141.77500000000003
42
-0.41421356237308982
10
-73.006250000000009
20
141.27500000000001
10
-73.006250000000009
20
128.27500000000001
42
-0.41421356237309503
10
-73.506250000000023
20
127.77500000000001
10
-88.887500000000017
20
127.77500000000001
42
-0.41421356237309503
10
-89.387500000000017
20
128.27500000000001
10
-89.387500000000017
20
141.27500000000001
42
-0.41421356237309503
0
LWPOLYLINE
5
180
100
AcDbEntity
8
0
100
AcDbPolyline
90
8
70
1
43
0.0
10
-389.42500000000001
20
28.262500000000003
42
0.4142135623730222
10
-388.92500000000007
20
27.762500000000014
10
-375.92500000000001
20
27.762500000000003
42
0.41421356237310542
10
-375.42500000000007
20
28.262499999999999
10
-375.42500000000007
20
41.262500000000003
42
0.4142135623730222
10
-375.92500000000001
20
41.762499999999974
10
-388.92500000000007
20
41.762500000000003
42
0.41421356237318868
10
-389.42500000000001
20
41.262500000000003
0
LWPOLYLINE
5
181
100
AcDbEntity
8
0
100
AcDbPolyline
90
8
70
1
43
0.0
10
-327.01250000000005
20
41.762499999999996
10
-314.01249999999999
20
41.762499999999953
42
-0.41421356237312101
10
-313.51250000000005
20
41.262500000000003
10
-313.51249999999999
20
28.262499999999999
42
-0.41421356237313145
10
-314.01249999999999
20
27.762500000000003
10
-327.01250000000005
20
27.762500000000014
42
-0.4142135623730222
10
-327.51249999999999
20
28.262500000000003
10
-327.51249999999999
20
41.262500000000003
42
-0.41421356237310542
0
LWPOLYLINE
5
182
100
AcDbEntity
8
0
100
AcDbPolyline
90
8
70
1
43
0.0
10
-388.92500000000007
20
65.575000000000017
42
0.41421356237319906
10
-389.42500000000001
20
65.075000000000017
10
-389.42500000000001
20
52.074999999999974
42
0.4142135623730222
10
-388.92500000000007
20
51.575000000000003
10
-375.92500000000001
20
51.575000000000003
42
0.41421356237311063
10
-375.42500000000007
20
52.074999999999996
10
-375.42500000000007
20
65.075000000000003
42
0.4142135623730222
10
-375.92500000000001
20
65.574999999999974
0
LWPOLYLINE
5
183
100
AcDbEntity
8
0
100
AcDbPolyline
90
8
70
1
43
0.0
10
-61.100000000000009
20
41.262500000000003
10
-61.100000000000009
20
28.262499999999999
42
-0.4142135623730846
10
-61.600000000000009
20
27.762500000000003
10
-74.600000000000009
20
27.762499999999992
42
-0.41421356237310281
10
-75.100000000000023
20
28.262500000000003
10
-75.100000000000023
20
41.262500000000003
42
-0.41421356237309503
10
-74.600000000000023
20
41.762500000000003
10
-61.600000000000009
20
41.762500000000003
42
-0.41421356237309503
0
CIRCLE
5
184
100
AcDbEntity
8
0
100
AcDbCircle
10
-47.859375
20
87.15000000000002
30
0
40
1.2999999999999989
210
0
220
-0
230
1
0
LWPOLYLINE
5
185
100
AcDbEntity
8
0
100
AcDbPolyline
90
8
70
1
43
0.0
10
-71.125
20
70.625000000000014
42
0.41421356237309503
10
-70.625
20
71.125
10
-70.625000000000014
20
84.125000000000014
42
0.41421356237308982
10
-71.125
20
84.625000000000028
10
-84.125000000000014
20
84.625000000000028
42
0.41421356237309503
10
-84.625000000000028
20
84.125000000000014
10
-84.625000000000028
20
71.125000000000014
42
0.41421356237309503
10
-84.125000000000014
20
70.625000000000014
0
LWPOLYLINE
5
186
100
AcDbEntity
8
0
100
AcDbPolyline
90
8
70
1
43
0.0
10
-44.143750000000004
20
90.175000000000011
42
0.41421356237310542
10
-43.643750000000011
20
89.675000000000011
10
-25.881250000000001
20
89.675000000000011
42
0.41421356237309503
10
-25.381249999999994
20
90.175000000000011
10
-25.381250000000005
20
103.17500000000003
42
0.41421356237310802
10
-25.881250000000001
20
103.67500000000004
10
-43.643750000000011
20
103.675
42
0.41421356237310025
10
-44.143750000000011
20
103.17499999999998
0
LWPOLYLINE
5
187
100
AcDbEntity
8
0
100
AcDbPolyline
90
8
70
1
43
0.0
10
-144.44375000000002
20
141.27500000000001
10
-144.44375000000002
20
128.27500000000001
42
-0.41421356237309503
10
-144.94375000000002
20
127.77500000000001
10
-169.85000000000002
20
127.77500000000001
42
-0.41421356237313667
10
-170.35000000000002
20
128.27500000000001
10
-170.35000000000002
20
141.27500000000001
42
-0.41421356237313667
10
-169.85000000000002
20
141.77500000000003
10
-144.94375000000002
20
141.77500000000003
42
-0.41421356237309503
0
LWPOLYLINE
5
188
100
AcDbEntity
8
0
100
AcDbPolyline
90
8
70
1
43
0.0
10
-151.30000000000001
20
52.075000000000017
42
0.41421356237310025
10
-150.80000000000001
20
51.574999999999996
10
-137.80000000000001
20
51.575000000000003
42
0.4142135623730846
10
-137.30000000000001
20
52.074999999999996
10
-137.30000000000001
20
65.075000000000003
42
0.41421356237310025
10
-137.80000000000001
20
65.575000000000017
10
-150.80000000000001
20
65.575000000000003
42
0.41421356237310542
10
-151.30000000000001
20
65.075000000000003
0
LWPOLYLINE
5
189
100
AcDbEntity
8
0
100
AcDbPolyline
90
8
70
1
43
0.0
10
-99.700000000000017
20
51.575000000000003
10
-112.69999999999999
20
51.574999999999996
42
-0.41421356237309503
10
-113.2
20
52.075000000000003
10
-113.2
20
65.075000000000003
42
-0.41421356237310542
10
-112.69999999999999
20
65.575000000000003
10
-99.700000000000017
20
65.575000000000017
42
-0.41421356237310025
10
-99.200000000000017
20
65.075000000000003
10
-99.200000000000017
20
52.074999999999996
42
-0.4142135623730846
0
LWPOLYLINE
5
190
100
AcDbEntity
8
0
100
AcDbPolyline
90
8
70
1
43
0.0
10
-261.62500000000006
20
70.625000000000014
42
0.41421356237307422
10
-261.125
20
71.125
10
-261.12500000000006
20
84.125000000000014
42
0.41421356237313667
10
-261.62500000000006
20
84.625000000000028
10
-274.625
20
84.625000000000028
42
0.41421356237313667
10
-275.125
20
84.125000000000014
10
-275.125
20
71.125000000000014
42
0.41421356237313145
10
-274.625
20
70.625000000000014
0
LWPOLYLINE
5
191
100
AcDbEntity
8
0
100
AcDbPolyline
90
8
70
1
43
0.0
10
-161.11250000000001
20
122.22499999999999
42
0.41421356237310542
10
-161.61250000000001
20
122.72500000000002
10
-174.61250000000001
20
122.72500000000001
42
0.41421356237310542
10
-175.11250000000001
20
122.22499999999999
10
-175.11250000000001
20
109.22499999999999
42
0.41421356237310542
10
-174.61250000000001
20
108.72499999999999
10
-161.61250000000001
20
108.72500000000002
42
0.41421356237309503
10
-161.11250000000007
20
109.22499999999999
0
LWPOLYLINE
5
192
100
AcDbEntity
8
0
100
AcDbPolyline
90
8
70
1
43
0.0
10
-146.82500000000002
20
41.262500000000003
10
-146.82500000000002
20
28.262499999999999
42
-0.41421356237310542
10
-147.32500000000002
20
27.762500000000003
10
-160.32500000000002
20
27.762500000000003
42
-0.41421356237313406
10
-160.82500000000005
20
28.262500000000003
10
-160.82500000000007
20
41.262500000000003
42
-0.41421356237307422
10
-160.32500000000002
20
41.762500000000003
10
-147.32500000000002
20
41.762500000000024
42
-0.41421356237310025
0
LWPOLYLINE
5
193
100
AcDbEntity
8
0
100
AcDbPolyline
90
8
70
1
43
0.0
10
-147.32500000000002
20
70.625000000000014
42
0.41421356237310542
10
-146.82500000000002
20
71.125
10
-146.82500000000002
20
84.125000000000014
42
0.41421356237309503
10
-147.32500000000002
20
84.625000000000028
10
-160.32500000000002
20
84.625000000000028
42
0.41421356237313667
10
-160.82500000000005
20
84.125000000000014
10
-160.82500000000005
20
71.125
42
0.41421356237313667
10
-160.32500000000002
20
70.625
0
LWPOLYLINE
5
194
100
AcDbEntity
8
0
100
AcDbPolyline
90
8
70
1
43
0.0
10
-427.52499999999998
20
28.262500000000003
42
0.4142135623730222
10
-427.02499999999998
20
27.762500000000014
10
-414.02499999999998
20
27.762500000000003
42
0.41421356237318868
10
-413.52499999999998
20
28.262499999999999
10
-413.52499999999998
20
41.262500000000031
42
0.4142135623730222
10
-414.02499999999998
20
41.762499999999996
10
-427.02499999999998
20
41.762500000000003
42
0.41421356237310542
10
-427.52499999999998
20
41.262500000000003
0
LWPOLYLINE
5
195
100
AcDbEntity
8
0
100
AcDbPolyline
90
8
70
1
43
0.0
10
-142.0625
20
122.22499999999999
42
0.41421356237309503
10
-142.5625
20
122.72500000000001
10
-155.56250000000003
20
122.72500000000001
42
0.41421356237309503
10
-156.06250000000003
20
122.22499999999999
10
-156.06250000000003
20
109.22499999999999
42
0.41421356237309503
10
-155.56250000000003
20
108.72499999999999
10
-142.5625
20
108.72500000000002
42
0.41421356237309503
10
-142.06250000000006
20
109.22499999999999
0
LWPOLYLINE
5
196
100
AcDbEntity
8
0
100
AcDbPolyline
90
20
70
1
43
0.0
10
-271.73700000000002
20
66.075000000000003
42
0.41421356237312623
10
-272.23700000000002
20
66.574999999999989
10
-278.23699999999997
20
66.575000000000003
42
0.41421356237307422
10
-278.73699999999997
20
66.075000000000003
10
-278.73699999999997
20
65.575000000000003
10
-295.61300000000006
20
65.575000000000017
10
-295.61300000000006
20
66.075000000000003
42
0.41421356237313145
10
-296.11300000000006
20
66.575000000000017
10
-302.113
20
66.575000000000003
42
0.4142135623730222
10
-302.613
20
66.075000000000003
10
-302.613
20
65.575000000000003
10
-303.19999999999999
20
65.575000000000003
42
0.4142135623730222
10
-303.69999999999999
20
65.075000000000003
10
-303.70000000000005
20
52.075000000000003
42
0.41421356237313145
10
-303.20000000000005
20
51.574999999999989
10
-271.15000000000003
20
51.575000000000003
42
0.41421356237301699
10
-270.65000000000003
20
52.074999999999996
10
-270.65000000000003
20
65.075000000000003
42
0.41421356237312623
10
-271.15000000000003
20
65.575000000000017
10
-271.73700000000002
20
65.575000000000017
0
LWPOLYLINE
5
197
100
AcDbEntity
8
0
100
AcDbPolyline
90
8
70
1
43
0.0
10
-408.47499999999997
20
28.262500000000003
42
0.4142135623730222
10
-407.97500000000002
20
27.762500000000014
10
-394.97499999999997
20
27.762500000000003
42
0.41421356237318868
10
-394.47499999999997
20
28.262499999999999
10
-394.47499999999997
20
41.262500000000031
42
0.4142135623730222
10
-394.97499999999997
20
41.762499999999996
10
-407.97500000000002
20
41.762500000000003
42
0.41421356237310542
10
-408.47499999999997
20
41.262500000000003
0
LWPOLYLINE
5
198
100
AcDbEntity
8
0
100
AcDbPolyline
90
8
70
1
43
0.0
10
-41.762500000000003
20
71.125
10
-41.762499999999989
20
84.125000000000014
42
-0.41421356237311063
10
-41.262500000000003
20
84.625
10
-28.262499999999999
20
84.625000000000028
42
-0.41421356237310542
10
-27.762500000000003
20
84.125000000000014
10
-27.762499999999996
20
71.125
42
-0.41421356237309764
10
-28.262499999999999
20
70.625000000000014
10
-41.262500000000003
20
70.625000000000014
42
-0.41421356237310542
0
LWPOLYLINE
5
199
100
AcDbEntity
8
0
100
AcDbPolyline
90
8
70
1
43
0.0
10
-407.97500000000002
20
65.575000000000003
10
-394.97499999999997
20
65.574999999999989
42
-0.4142135623730222
10
-394.47499999999997
20
65.075000000000003
10
-394.47499999999997
20
52.074999999999996
42
-0.4142135623731939
10
-394.97499999999997
20
51.575000000000003
10
-407.97500000000002
20
51.575000000000017
42
-0.4142135623730222
10
-408.47499999999997
20
52.075000000000003
10
-408.47499999999997
20
65.075000000000003
42
-0.41421356237310542
0
CIRCLE
5
200
100
AcDbEntity
8
0
100
AcDbCircle
10
-139.53750000000002
20
32.762500000000003
30
0
40
1.3000000000000078
210
0
220
-0
230
1
0
CIRCLE
5
201
100
AcDbEntity
8
0
100
AcDbCircle
10
-137.53750000000002
20
135.36616446535371
30
0
40
1.3000000000000078
210
0
220
-0
230
1
0
LWPOLYLINE
5
202
100
AcDbEntity
8
0
100
AcDbPolyline
90
8
70
1
43
0.0
10
-246.05000000000004
20
65.575000000000017
42
0.4142135623730222
10
-246.55000000000001
20
65.075000000000017
10
-246.55000000000004
20
52.075000000000003
42
0.41421356237312101
10
-246.05000000000004
20
51.574999999999989
10
-233.05000000000004
20
51.575000000000003
42
0.414213562373069
10
-232.55000000000001
20
52.074999999999996
10
-232.55000000000001
20
65.075000000000003
42
0.41421356237313667
10
-233.05000000000004
20
65.575000000000017
0
LWPOLYLINE
5
203
100
AcDbEntity
8
0
100
AcDbPolyline
90
8
70
1
43
0.0
10
-80.150000000000006
20
41.262500000000003
42
0.41421356237310025
10
-80.650000000000006
20
41.762500000000024
10
-93.65000000000002
20
41.762500000000003
42
0.41421356237310542
10
-94.150000000000034
20
41.262500000000003
10
-94.150000000000034
20
28.262500000000014
42
0.41421356237309503
10
-93.65000000000002
20
27.76250000000001
10
-80.650000000000006
20
27.762500000000003
42
0.41421356237310542
10
-80.150000000000006
20
28.262499999999999
0
LWPOLYLINE
5
204
100
AcDbEntity
8
0
100
AcDbPolyline
90
8
70
1
43
0.0
10
-127.48750000000001
20
90.175000000000011
10
-127.48750000000001
20
103.17500000000003
42
-0.41421356237309503
10
-126.98750000000001
20
103.67500000000004
10
-113.9875
20
103.67500000000004
42
-0.41421356237309503
10
-113.48749999999998
20
103.17500000000003
10
-113.48749999999998
20
90.175000000000011
42
-0.41421356237309503
10
-113.9875
20
89.675000000000011
10
-126.98750000000001
20
89.675000000000011
42
-0.41421356237309503
0
LWPOLYLINE
5
205
100
AcDbEntity
8
0
100
AcDbPolyline
90
8
70
1
43
0.0
10
-65.075000000000003
20
84.625
10
-52.075000000000003
20
84.625000000000028
42
-0.41421356237308982
10
-51.575000000000003
20
84.125000000000014
10
-51.575000000000003
20
71.125
42
-0.41421356237309503
10
-52.075000000000003
20
70.625000000000014
10
-65.075000000000003
20
70.625000000000014
42
-0.41421356237310542
10
-65.575000000000003
20
71.125
10
-65.574999999999989
20
84.125000000000014
42
-0.41421356237311063
0
LWPOLYLINE
5
206
100
AcDbEntity
8
0
100
AcDbPolyline
90
8
70
1
43
0.0
10
-118.25000000000003
20
41.262500000000003
42
0.41421356237310025
10
-118.75000000000003
20
41.762500000000024
10
-131.75
20
41.762500000000003
42
0.41421356237310542
10
-132.25
20
41.262500000000003
10
-132.25
20
28.262500000000003
42
0.41421356237309503
10
-131.75
20
27.762499999999992
10
-118.75000000000003
20
27.762500000000003
42
0.41421356237310542
10
-118.25000000000003
20
28.262499999999999
0
LWPOLYLINE
5
207
100
AcDbEntity
8
0
100
AcDbPolyline
90
8
70
1
43
0.0
10
-23
20
41.262500000000003
42
0.41421356237309764
10
-23.499999999999996
20
41.762499999999996
10
-36.5
20
41.762500000000003
42
0.41421356237309764
10
-37
20
41.262500000000003
10
-37
20
28.262500000000003
42
0.41421356237309503
10
-36.5
20
27.76250000000001
10
-23.499999999999996
20
27.762500000000003
42
0.41421356237310025
10
-22.999999999999993
20
28.262499999999999
0
LWPOLYLINE
5
208
100
AcDbEntity
8
0
100
AcDbPolyline
90
8
70
1
43
0.0
10
-156.85000000000002
20
51.575000000000003
42
0.41421356237308982
10
-156.35000000000002
20
52.075000000000003
10
-156.35000000000002
20
65.075000000000003
42
0.41421356237310025
10
-156.85000000000002
20
65.575000000000017
10
-169.85000000000002
20
65.575000000000003
42
0.41421356237307422
10
-170.35000000000002
20
65.075000000000003
10
-170.35000000000002
20
52.075000000000003
42
0.41421356237313145
10
-169.85000000000002
20
51.574999999999989
0
LWPOLYLINE
5
209
100
AcDbEntity
8
0
100
AcDbPolyline
90
8
70
1
43
0.0
10
-55.549999999999997
20
65.575000000000003
42
0.41421356237310542
10
-56.049999999999997
20
65.075000000000003
10
-56.049999999999997
20
52.075000000000003
42
0.41421356237309503
10
-55.549999999999997
20
51.575000000000003
10
-42.550000000000011
20
51.575000000000003
42
0.41421356237308982
10
-42.050000000000011
20
52.074999999999996
10
-42.050000000000011
20
65.075000000000003
42
0.41421356237310542
10
-42.550000000000011
20
65.575000000000003
0
LWPOLYLINE
5
210
100
AcDbEntity
8
0
100
AcDbPolyline
90
8
70
1
43
0.0
10
-146.53750000000002
20
90.175000000000011
42
0.41421356237309503
10
-146.03750000000002
20
89.675000000000011
10
-133.03750000000002
20
89.675000000000011
42
0.41421356237309503
10
-132.53749999999999
20
90.175000000000011
10
-132.53749999999999
20
103.17500000000003
42
0.41421356237309503
10
-133.03750000000002
20
103.67500000000004
10
-146.03750000000002
20
103.67500000000004
42
0.41421356237309503
10
-146.53750000000002
20
103.17500000000003
0
LWPOLYLINE
5
211
100
AcDbEntity
8
0
100
AcDbPolyline
90
8
70
1
43
0.0
10
-413.52499999999998
20
65.075000000000003
10
-413.52499999999998
20
52.074999999999996
42
-0.4142135623731939
10
-414.02499999999998
20
51.575000000000003
10
-427.02499999999998
20
51.574999999999989
42
-0.4142135623730222
10
-427.52499999999998
20
52.074999999999974
10
-427.52499999999998
20
65.075000000000003
42
-0.41421356237310542
10
-427.02499999999998
20
65.575000000000003
10
-414.02499999999998
20
65.574999999999989
42
-0.4142135623730222
0
LWPOLYLINE
5
212
100
AcDbEntity
8
0
100
AcDbPolyline
90
8
70
1
43
0.0
10
-84.912500000000009
20
122.22499999999999
42
0.41421356237309503
10
-85.412500000000023
20
122.72500000000001
10
-98.412500000000023
20
122.72500000000001
42
0.41421356237309503
10
-98.912500000000023
20
122.22499999999999
10
-98.912500000000023
20
109.22499999999999
42
0.41421356237309503
10
-98.412500000000023
20
108.72499999999999
10
-85.412500000000023
20
108.72500000000002
42
0.41421356237309503
10
-84.912500000000009
20
109.22499999999999
0
LWPOLYLINE
5
213
100
AcDbEntity
8
0
100
AcDbPolyline
90
8
70
1
43
0.0
10
-346.0625
20
65.575000000000017
42
0.41421356237311585
10
-346.5625
20
65.075000000000017
10
-346.5625
20
52.075000000000003
42
0.4142135623730222
10
-346.0625
20
51.575000000000024
10
-333.0625
20
51.575000000000003
42
0.4142135623731939
10
-332.5625
20
52.074999999999996
10
-332.5625
20
65.075000000000003
42
0.4142135623730222
10
-333.0625
20
65.574999999999974
0
LWPOLYLINE
5
214
100
AcDbEntity
8
0
100
AcDbPolyline
90
8
70
1
43
0.0
10
-346.5625
20
28.262499999999978
42
0.4142135623730222
10
-346.0625
20
27.762499999999989
10
-333.0625
20
27.762500000000003
42
0.41421356237318868
10
-332.5625
20
28.262499999999999
10
-332.5625
20
41.262500000000003
42
0.4142135623730222
10
-333.0625
20
41.762499999999974
10
-346.0625
20
41.762500000000003
42
0.41421356237310542
10
-346.5625
20
41.262500000000003
0
LWPOLYLINE
5
215
100
AcDbEntity
8
0
100
AcDbPolyline
90
8
70
1
43
0.0
10
-265.60000000000002
20
28.262500000000017
10
-265.60000000000008
20
41.262500000000003
42
-0.41421356237307422
10
-265.10000000000002
20
41.762500000000003
10
-252.10000000000002
20
41.762499999999996
42
-0.41421356237312623
10
-251.59999999999999
20
41.262500000000003
10
-251.59999999999997
20
28.262499999999999
42
-0.41421356237312101
10
-252.10000000000002
20
27.762500000000003
10
-265.10000000000002
20
27.76250000000001
42
-0.41421356237313667
0
LWPOLYLINE
5
216
100
AcDbEntity
8
0
100
AcDbPolyline
90
8
70
1
43
0.0
10
-23.499999999999996
20
51.575000000000003
10
-36.5
20
51.575000000000003
42
-0.41421356237309503
10
-37
20
52.075000000000003
10
-37.000000000000007
20
65.075000000000003
42
-0.41421356237309764
10
-36.5
20
65.575000000000003
10
-23.499999999999996
20
65.574999999999989
42
-0.41421356237309764
10
-23
20
65.075000000000003
10
-23
20
52.074999999999996
42
-0.41421356237308982
0
LWPOLYLINE
5
217
100
AcDbEntity
8
0
100
AcDbPolyline
90
8
70
1
43
0.0
10
-314.01249999999999
20
70.625000000000014
10
-327.01250000000005
20
70.625000000000014
42
-0.4142135623730222
10
-327.51249999999999
20
71.125
10
-327.51249999999999
20
84.125000000000014
42
-0.41421356237310542
10
-327.01250000000005
20
84.625
10
-314.01249999999999
20
84.624999999999986
42
-0.41421356237311585
10
-313.51250000000005
20
84.125000000000057
10
-313.51249999999999
20
71.125
42
-0.41421356237307422
0
LWPOLYLINE
5
218
100
AcDbEntity
8
0
100
AcDbPolyline
90
8
70
1
43
0.0
10
-352.11250000000001
20
27.762500000000003
42
0.41421356237319129
10
-351.61250000000001
20
28.262500000000003
10
-351.61250000000001
20
41.262500000000031
42
0.4142135623730222
10
-352.11250000000001
20
41.762499999999996
10
-365.11250000000007
20
41.762500000000003
42
0.41421356237310542
10
-365.61250000000001
20
41.262500000000003
10
-365.61250000000001
20
28.262500000000003
42
0.4142135623730222
10
-365.11250000000007
20
27.762500000000028
0
LWPOLYLINE
5
219
100
AcDbEntity
8
0
100
AcDbPolyline
90
8
70
1
43
0.0
10
-33.468249999999998
20
109.22499999999999
42
0.41421356237310542
10
-32.968249999999998
20
108.72499999999999
10
-26.968250000000005
20
108.72499999999999
42
0.41421356237309243
10
-26.468249999999998
20
109.22499999999999
10
-26.468250000000005
20
123.22500000000002
42
0.41421356237310542
10
-26.968250000000005
20
123.72500000000002
10
-32.968249999999998
20
123.72500000000002
42
0.41421356237309243
10
-33.468249999999998
20
123.22500000000002
0
LWPOLYLINE
5
220
100
AcDbEntity
8
0
100
AcDbPolyline
90
8
70
1
43
0.0
10
-351.61250000000001
20
65.075000000000003
10
-351.61250000000001
20
52.074999999999996
42
-0.4142135623731939
10
-352.11250000000001
20
51.575000000000003
10
-365.11250000000007
20
51.575000000000017
42
-0.4142135623730222
10
-365.61250000000001
20
52.075000000000003
10
-365.61250000000001
20
65.075000000000003
42
-0.41421356237310542
10
-365.11250000000007
20
65.575000000000003
10
-352.11250000000001
20
65.574999999999989
42
-0.4142135623730222
0
LWPOLYLINE
5
221
100
AcDbEntity
8
0
100
AcDbPolyline
90
8
70
1
43
0.0
10
-75.100000000000023
20
52.074999999999996
10
-75.100000000000023
20
65.075000000000017
42
-0.41421356237309503
10
-74.600000000000023
20
65.575000000000017
10
-61.600000000000009
20
65.575000000000003
42
-0.41421356237309503
10
-61.100000000000009
20
65.075000000000003
10
-61.100000000000009
20
52.074999999999996
42
-0.41421356237308982
10
-61.600000000000009
20
51.575000000000003
10
-74.600000000000009
20
51.575000000000003
42
-0.41421356237310542
0
LWPOLYLINE
5
222
100
AcDbEntity
8
0
100
AcDbPolyline
90
8
70
1
43
0.0
10
-152.08750000000003
20
89.675000000000011
10
-165.08749999999998
20
89.674999999999997
42
-0.41421356237310542
10
-165.58750000000001
20
90.175000000000011
10
-165.58749999999998
20
103.17500000000003
42
-0.41421356237310542
10
-165.08749999999998
20
103.67500000000004
10
-152.08750000000003
20
103.67500000000004
42
-0.41421356237309503
10
-151.58750000000001
20
103.17500000000003
10
-151.58750000000001
20
90.175000000000011
42
-0.41421356237309503
0
LWPOLYLINE
5
223
100
AcDbEntity
8
0
100
AcDbPolyline
90
8
70
1
43
0.0
10
-180.16250000000002
20
122.22499999999999
42
0.41421356237310542
10
-180.66250000000002
20
122.72500000000002
10
-193.66250000000005
20
122.72500000000001
42
0.41421356237313667
10
-194.16250000000005
20
122.22499999999999
10
-194.16250000000005
20
109.22499999999999
42
0.41421356237313667
10
-193.66250000000005
20
108.72499999999999
10
-180.66250000000002
20
108.72499999999999
42
0.41421356237310542
10
-180.16250000000002
20
109.22499999999999
0
LWPOLYLINE
5
224
100
AcDbEntity
8
0
100
AcDbPolyline
90
8
70
1
43
0.0
10
-128.27500000000001
20
70.625000000000014
10
-141.27499999999998
20
70.624999999999986
42
-0.41421356237310025
10
-141.77499999999998
20
71.125
10
-141.77500000000001
20
84.125000000000014
42
-0.41421356237313667
10
-141.27500000000001
20
84.625
10
-128.27500000000001
20
84.625000000000028
42
-0.41421356237309503
10
-127.77500000000001
20
84.125000000000014
10
-127.77500000000001
20
71.125
42
-0.41421356237310542
0
LWPOLYLINE
5
225
100
AcDbEntity
8
0
100
AcDbPolyline
90
8
70
1
43
0.0
10
-132.25
20
52.075000000000017
42
0.41421356237310025
10
-131.75
20
51.574999999999996
10
-118.75000000000003
20
51.575000000000003
42
0.4142135623730846
10
-118.25000000000003
20
52.074999999999996
10
-118.25000000000003
20
65.075000000000003
42
0.41421356237310025
10
-118.75000000000003
20
65.575000000000017
10
-131.75
20
65.575000000000017
42
0.41421356237308982
10
-132.25
20
65.075000000000017
0
CIRCLE
5
226
100
AcDbEntity
8
0
100
AcDbCircle
10
-49.050000000000004
20
32.762500000000003
30
0
40
1.2999999999999989
210
0
220
-0
230
1
0
LWPOLYLINE
5
227
100
AcDbEntity
8
0
100
AcDbPolyline
90
8
70
1
43
0.0
10
-56.337500000000006
20
103.17500000000003
42
0.41421356237308982
10
-56.837500000000006
20
103.67500000000004
10
-69.83750000000002
20
103.675
42
0.41421356237310025
10
-70.337499999999977
20
103.17500000000003
10
-70.337500000000006
20
90.175000000000011
42
0.41421356237312101
10
-69.837500000000006
20
89.675000000000011
10
-56.837500000000006
20
89.675000000000011
42
0.41421356237309503
10
-56.337499999999999
20
90.175000000000011
0
LWPOLYLINE
5
228
100
AcDbEntity
8
0
100
AcDbPolyline
90
8
70
1
43
0.0
10
-332.5625
20
84.125000000000014
10
-332.5625
20
71.125
42
-0.41421356237318868
10
-333.0625
20
70.625000000000014
10
-346.0625
20
70.624999999999986
42
-0.4142135623730222
10
-346.5625
20
71.124999999999986
10
-346.5625
20
84.125000000000014
42
-0.41421356237310542
10
-346.0625
20
84.625
10
-333.0625
20
84.625
42
-0.4142135623730222
0
CIRCLE
5
229
100
AcDbEntity
8
0
100
AcDbCircle
10
-225.2625000000001
20
87.906250000000028
30
0
40
1.2999999999999901
210
0
220
-0
230
1
0
CIRCLE
5
230
100
AcDbEntity
8
0
100
AcDbCircle
10
-225.26250000000005
20
32.762500000000003
30
0
40
1.2999999999999901
210
0
220
-0
230
1
0
CIRCLE
5
231
100
AcDbEntity
8
0
100
AcDbCircle
10
-429.29375000000005
20
87.15000000000002
30
0
40
1.3000000000000256
210
0
220
-0
230
1
0
LWPOLYLINE
5
232
100
AcDbEntity
8
0
100
AcDbPolyline
90
20
70
1
43
0.0
10
-408.47499999999997
20
128.27500000000001
10
-408.47499999999997
20
141.27500000000001
42
-0.41421356237312623
10
-407.97500000000002
20
141.77500000000003
10
-407.38799999999998
20
141.77500000000003
10
-407.38799999999998
20
142.27499999999998
42
-0.41421356237313667
10
-406.88799999999992
20
142.77500000000001
10
-400.88799999999998
20
142.77499999999998
42
-0.4142135623730222
10
-400.38800000000003
20
142.27499999999998
10
-400.38800000000003
20
141.77500000000003
10
-383.512
20
141.77500000000001
10
-383.51200000000006
20
142.27499999999998
42
-0.41421356237313667
10
-383.012
20
142.77500000000001
10
-377.012
20
142.77499999999998
42
-0.4142135623730222
10
-376.51200000000006
20
142.27499999999998
10
-376.51200000000006
20
141.77499999999998
10
-375.92500000000001
20
141.77500000000001
42
-0.4142135623730222
10
-375.42500000000007
20
141.27500000000001
10
-375.42500000000007
20
128.27500000000001
42
-0.41421356237312623
10
-375.92500000000001
20
127.77500000000001
10
-407.97500000000002
20
127.77500000000002
42
-0.4142135623730222
0
LWPOLYLINE
5
233
100
AcDbEntity
8
0
100
AcDbPolyline
90
8
70
1
43
0.0
10
-414.02499999999998
20
89.675000000000011
10
-427.02499999999998
20
89.675000000000026
42
-0.4142135623730222
10
-427.52499999999998
20
90.175000000000011
10
-427.52499999999998
20
103.17500000000003
42
-0.41421356237312623
10
-427.02499999999998
20
103.67500000000004
10
-414.02499999999998
20
103.67500000000001
42
-0.4142135623730222
10
-413.52499999999998
20
103.17500000000003
10
-413.52499999999992
20
90.175000000000011
42
-0.41421356237313667
0
LWPOLYLINE
5
234
100
AcDbEntity
8
0
100
AcDbPolyline
90
8
70
1
43
0.0
10
-427.02499999999998
20
141.77500000000003
42
0.41421356237312623
10
-427.52499999999998
20
141.27500000000001
10
-427.52499999999998
20
128.27500000000001
42
0.4142135623730222
10
-427.02499999999998
20
127.77500000000003
10
-414.02499999999998
20
127.77500000000001
42
0.41421356237313667
10
-413.52499999999998
20
128.27500000000001
10
-413.52499999999998
20
141.27500000000001
42
0.4142135623730222
10
-414.02499999999998
20
141.77499999999998
0
LWPOLYLINE
5
235
100
AcDbEntity
8
0
100
AcDbPolyline
90
8
70
1
43
0.0
10
-389.42500000000001
20
109.22499999999999
42
0.4142135623730222
10
-388.92500000000007
20
108.72500000000001
10
-375.92500000000001
20
108.72499999999999
42
0.41421356237312623
10
-375.42500000000007
20
109.22499999999999
10
-375.42500000000007
20
122.22499999999999
42
0.4142135623730222
10
-375.92500000000001
20
122.72499999999997
10
-388.92500000000007
20
122.72500000000001
42
0.41421356237313667
10
-389.42500000000001
20
122.22499999999999
0
LWPOLYLINE
5
236
100
AcDbEntity
8
0
100
AcDbPolyline
90
8
70
1
43
0.0
10
-236.52500000000001
20
84.625
42
0.4142135623730846
10
-237.02500000000001
20
84.125000000000014
10
-237.02500000000001
20
71.125000000000014
42
0.41421356237313145
10
-236.52500000000001
20
70.625000000000014
10
-223.52500000000003
20
70.625000000000014
42
0.41421356237307422
10
-223.02500000000003
20
71.125
10
-223.02500000000003
20
84.125000000000014
42
0.41421356237313667
10
-223.52500000000003
20
84.625000000000028
0
CIRCLE
5
237
100
AcDbEntity
8
0
100
AcDbCircle
10
-233.59675000000004
20
126.71900000000002
30
0
40
1.2999999999999901
210
0
220
-0
230
1
0
CIRCLE
5
238
100
AcDbEntity
8
0
100
AcDbCircle
10
-370.51875000000001
20
126.71900000000002
30
0
40
1.3000000000000256
210
0
220
-0
230
1
0
LWPOLYLINE
5
239
100
AcDbEntity
8
0
100
AcDbPolyline
90
8
70
1
43
0.0
10
-184.13750000000005
20
103.67500000000004
10
-171.13750000000005
20
103.67500000000005
42
-0.41421356237310542
10
-170.63750000000002
20
103.17500000000003
10
-170.63750000000005
20
90.175000000000011
42
-0.41421356237310542
10
-171.13750000000005
20
89.675000000000011
10
-184.13750000000005
20
89.675000000000082
42
-0.41421356237311585
10
-184.63750000000002
20
90.175000000000011
10
-184.63750000000005
20
103.17500000000003
42
-0.41421356237313667
0
LWPOLYLINE
5
240
100
AcDbEntity
8
0
100
AcDbPolyline
90
8
70
1
43
0.0
10
-179.37500000000003
20
84.625
42
0.4142135623730846
10
-179.87500000000006
20
84.125000000000014
10
-179.87500000000006
20
71.125
42
0.41421356237313667
10
-179.37500000000003
20
70.625
10
-166.37500000000003
20
70.625000000000014
42
0.4142135623730222
10
-165.87500000000003
20
71.125
10
-165.87500000000003
20
84.125000000000014
42
0.41421356237310542
10
-166.37500000000003
20
84.625000000000028
0
LWPOLYLINE
5
241
100
AcDbEntity
8
0
100
AcDbPolyline
90
8
70
1
43
0.0
10
-285.4375
20
70.625000000000014
42
0.4142135623730222
10
-284.93750000000006
20
71.125
10
-284.9375
20
84.125000000000014
42
0.41421356237310542
10
-285.4375
20
84.625000000000028
10
-298.43750000000006
20
84.625
42
0.4142135623730846
10
-298.93750000000006
20
84.125000000000014
10
-298.93750000000006
20
71.125000000000014
42
0.41421356237313145
10
-298.43750000000006
20
70.625000000000014
0
LWPOLYLINE
5
242
100
AcDbEntity
8
0
100
AcDbPolyline
90
8
70
1
43
0.0
10
-427.02499999999998
20
122.72500000000001
10
-414.02499999999998
20
122.72499999999999
42
-0.4142135623730222
10
-413.52499999999998
20
122.22499999999999
10
-413.52499999999992
20
109.22499999999999
42
-0.41421356237313667
10
-414.02499999999998
20
108.72499999999999
10
-427.02499999999998
20
108.72500000000001
42
-0.4142135623730222
10
-427.52499999999998
20
109.22499999999999
10
-427.52499999999998
20
122.22499999999999
42
-0.41421356237312623
0
CIRCLE
5
243
100
AcDbEntity
8
0
100
AcDbCircle
10
-307.416
20
135.36616446535371
30
0
40
1.2999999999999901
210
0
220
-0
230
1
0
LWPOLYLINE
5
244
100
AcDbEntity
8
0
100
AcDbPolyline
90
8
70
1
43
0.0
10
-261.12500000000006
20
141.27500000000001
10
-261.12500000000006
20
128.27500000000001
42
-0.41421356237313667
10
-261.62500000000006
20
127.77500000000001
10
-277.00624999999997
20
127.77500000000001
42
-0.41421356237313667
10
-277.50625000000002
20
128.27500000000001
10
-277.50625000000002
20
141.27500000000001
42
-0.41421356237313667
10
-277.00624999999997
20
141.77500000000003
10
-261.62500000000006
20
141.77500000000003
42
-0.41421356237313667
0
CIRCLE
5
245
100
AcDbEntity
8
0
100
AcDbCircle
10
-306.22500000000002
20
87.15000000000002
30
0
40
1.2999999999999901
210
0
220
-0
230
1
0
LWPOLYLINE
5
246
100
AcDbEntity
8
0
100
AcDbPolyline
90
8
70
1
43
0.0
10
-271.59325000000007
20
109.22499999999999
10
-271.59325000000001
20
123.22500000000002
42
-0.41421356237310542
10
-271.09325000000007
20
123.72500000000002
10
-265.09325000000001
20
123.72500000000004
42
-0.41421356237310542
10
-264.59325000000001
20
123.22500000000002
10
-264.59325000000007
20
109.22499999999999
42
-0.41421356237310542
10
-265.09325000000001
20
108.72499999999999
10
-271.09325000000007
20
108.72499999999997
42
-0.41421356237310542
0
CIRCLE
5
247
100
AcDbEntity
8
0
100
AcDbCircle
10
-308.60650000000004
20
32.762500000000003
30
0
40
1.2999999999999901
210
0
220
-0
230
1
0
LWPOLYLINE
5
248
100
AcDbEntity
8
0
100
AcDbPolyline
90
8
70
1
43
0.0
10
-276.35575000000006
20
90.175000000000011
42
0.41421356237313667
10
-275.85575
20
89.675000000000011
10
-269.85575000000006
20
89.675000000000011
42
0.41421356237310542
10
-269.35575000000006
20
90.175000000000011
10
-269.35575000000006
20
104.17500000000001
42
0.41421356237310542
10
-269.85575000000006
20
104.67500000000001
10
-275.85575
20
104.67500000000001
42
0.41421356237313667
10
-276.35575000000006
20
104.17500000000001
0
LWPOLYLINE
5
249
100
AcDbEntity
8
0
100
AcDbPolyline
90
8
70
1
43
0.0
10
-25.381250000000001
20
141.27500000000001
42
0.41421356237310802
10
-25.881250000000001
20
141.77500000000003
10
-41.262500000000003
20
141.77500000000003
42
0.41421356237310025
10
-41.762500000000017
20
141.27500000000001
10
-41.762500000000003
20
128.27500000000001
42
0.41421356237310542
10
-41.262500000000003
20
127.77500000000001
10
-25.881250000000001
20
127.77500000000001
42
0.41421356237309503
10
-25.381250000000001
20
128.27500000000001
0
CIRCLE
5
250
100
AcDbEntity
8
0
100
AcDbCircle
10
-43.000000000000007
20
22.662500000000012
30
0
40
1.3499999999999979
210
0
220
-0
230
1
0
ENDSEC
0
SECTION
2
OBJECTS
0
DICTIONARY
5
C
100
AcDbDictionary
3
ACAD_GROUP
350
D
3
ACAD_MLINESTYLE
350
17
0
DICTIONARY
5
D
100
AcDbDictionary
0
DICTIONARY
5
1A
330
C
100
AcDbDictionary
0
DICTIONARY
5
17
100
AcDbDictionary
0
ENDSEC
0
EOF
